  0
SECTION
  2
HEADER
  9
$ACADVER
  1
AC1014
  9
$ACADMAINTVER
 70
     9
  9
$DWGCODEPAGE
  3
ANSI_1252
  9
$INSBASE
 10
0.0
 20
0.0
 30
0.0
  9
$EXTMIN
 10
10.25903324300776
 20
5.848215432707469
 30
-0.0015258207003583
  9
$EXTMAX
 10
11.42541506633327
 20
8.142937619320374
 30
0.0000000349246037
  9
$LIMMIN
 10
0.0
 20
0.0
  9
$LIMMAX
 10
12.0
 20
9.0
  9
$ORTHOMODE
 70
     0
  9
$REGENMODE
 70
     1
  9
$FILLMODE
 70
     1
  9
$QTEXTMODE
 70
     0
  9
$MIRRTEXT
 70
     1
  9
$DRAGMODE
 70
     2
  9
$LTSCALE
 40
1.0
  9
$OSMODE
 70
   679
  9
$ATTMODE
 70
     1
  9
$TEXTSIZE
 40
0.2
  9
$TRACEWID
 40
0.05
  9
$TEXTSTYLE
  7
STANDARD
  9
$CLAYER
  8
PROFILE
  9
$CELTYPE
  6
BYLAYER
  9
$CECOLOR
 62
   256
  9
$CELTSCALE
 40
1.0
  9
$DELOBJ
 70
     1
  9
$DISPSILH
 70
     0
  9
$DIMSCALE
 40
1.0
  9
$DIMASZ
 40
0.18
  9
$DIMEXO
 40
0.0625
  9
$DIMDLI
 40
0.38
  9
$DIMRND
 40
0.0
  9
$DIMDLE
 40
0.0
  9
$DIMEXE
 40
0.18
  9
$DIMTP
 40
0.0
  9
$DIMTM
 40
0.0
  9
$DIMTXT
 40
0.18
  9
$DIMCEN
 40
0.09
  9
$DIMTSZ
 40
0.0
  9
$DIMTOL
 70
     0
  9
$DIMLIM
 70
     0
  9
$DIMTIH
 70
     1
  9
$DIMTOH
 70
     1
  9
$DIMSE1
 70
     0
  9
$DIMSE2
 70
     0
  9
$DIMTAD
 70
     0
  9
$DIMZIN
 70
     0
  9
$DIMBLK
  1

  9
$DIMASO
 70
     1
  9
$DIMSHO
 70
     1
  9
$DIMPOST
  1

  9
$DIMAPOST
  1

  9
$DIMALT
 70
     0
  9
$DIMALTD
 70
     2
  9
$DIMALTF
 40
25.4
  9
$DIMLFAC
 40
1.0
  9
$DIMTOFL
 70
     0
  9
$DIMTVP
 40
0.0
  9
$DIMTIX
 70
     0
  9
$DIMSOXD
 70
     0
  9
$DIMSAH
 70
     0
  9
$DIMBLK1
  1

  9
$DIMBLK2
  1

  9
$DIMSTYLE
  2
STANDARD_WS
  9
$DIMCLRD
 70
     0
  9
$DIMCLRE
 70
     0
  9
$DIMCLRT
 70
     0
  9
$DIMTFAC
 40
1.0
  9
$DIMGAP
 40
0.09
  9
$DIMJUST
 70
     0
  9
$DIMSD1
 70
     0
  9
$DIMSD2
 70
     0
  9
$DIMTOLJ
 70
     1
  9
$DIMTZIN
 70
     0
  9
$DIMALTZ
 70
     0
  9
$DIMALTTZ
 70
     0
  9
$DIMFIT
 70
     3
  9
$DIMUPT
 70
     0
  9
$DIMUNIT
 70
     2
  9
$DIMDEC
 70
     4
  9
$DIMTDEC
 70
     4
  9
$DIMALTU
 70
     2
  9
$DIMALTTD
 70
     2
  9
$DIMTXSTY
  7
STANDARD
  9
$DIMAUNIT
 70
     0
  9
$LUNITS
 70
     2
  9
$LUPREC
 70
     4
  9
$SKETCHINC
 40
0.1
  9
$FILLETRAD
 40
0.0
  9
$AUNITS
 70
     0
  9
$AUPREC
 70
     4
  9
$MENU
  1
.
  9
$ELEVATION
 40
0.0
  9
$PELEVATION
 40
0.0
  9
$THICKNESS
 40
0.0
  9
$LIMCHECK
 70
     0
  9
$BLIPMODE
 70
     0
  9
$CHAMFERA
 40
0.5
  9
$CHAMFERB
 40
0.5
  9
$CHAMFERC
 40
1.0
  9
$CHAMFERD
 40
0.0
  9
$SKPOLY
 70
     1
  9
$TDCREATE
 40
2451257.516379630
  9
$TDUPDATE
 40
2454950.423541852
  9
$TDINDWG
 40
5.0496334259
  9
$TDUSRTIMER
 40
5.0496334259
  9
$USRTIMER
 70
     1
  9
$ANGBASE
 50
0.0
  9
$ANGDIR
 70
     0
  9
$PDMODE
 70
     0
  9
$PDSIZE
 40
0.0
  9
$PLINEWID
 40
0.0
  9
$COORDS
 70
     1
  9
$SPLFRAME
 70
     0
  9
$SPLINETYPE
 70
     6
  9
$SPLINESEGS
 70
     8
  9
$ATTDIA
 70
     0
  9
$ATTREQ
 70
     1
  9
$HANDLING
 70
 22529
  9
$HANDSEED
  5
928
  9
$SURFTAB1
 70
     6
  9
$SURFTAB2
 70
     6
  9
$SURFTYPE
 70
     6
  9
$SURFU
 70
     6
  9
$SURFV
 70
     6
  9
$UCSNAME
  2

  9
$UCSORG
 10
0.0
 20
0.0
 30
0.0
  9
$UCSXDIR
 10
1.0
 20
0.0
 30
0.0
  9
$UCSYDIR
 10
0.0
 20
1.0
 30
0.0
  9
$PUCSNAME
  2

  9
$PUCSORG
 10
0.0
 20
0.0
 30
0.0
  9
$PUCSXDIR
 10
1.0
 20
0.0
 30
0.0
  9
$PUCSYDIR
 10
0.0
 20
1.0
 30
0.0
  9
$USERI1
 70
     0
  9
$USERI2
 70
     0
  9
$USERI3
 70
     0
  9
$USERI4
 70
     0
  9
$USERI5
 70
     0
  9
$USERR1
 40
0.0
  9
$USERR2
 40
0.0
  9
$USERR3
 40
0.0
  9
$USERR4
 40
0.0
  9
$USERR5
 40
0.0
  9
$WORLDVIEW
 70
     1
  9
$SHADEDGE
 70
     3
  9
$SHADEDIF
 70
    70
  9
$TILEMODE
 70
     1
  9
$MAXACTVP
 70
    48
  9
$PINSBASE
 10
0.0
 20
0.0
 30
0.0
  9
$PLIMCHECK
 70
     0
  9
$PEXTMIN
 10
1.000000000000000E+20
 20
1.000000000000000E+20
 30
1.000000000000000E+20
  9
$PEXTMAX
 10
-1.000000000000000E+20
 20
-1.000000000000000E+20
 30
-1.000000000000000E+20
  9
$PLIMMIN
 10
0.0
 20
0.0
  9
$PLIMMAX
 10
12.0
 20
9.0
  9
$UNITMODE
 70
     0
  9
$VISRETAIN
 70
     0
  9
$PLINEGEN
 70
     0
  9
$PSLTSCALE
 70
     1
  9
$TREEDEPTH
 70
  3020
  9
$PICKSTYLE
 70
     1
  9
$CMLSTYLE
  2
STANDARD
  9
$CMLJUST
 70
     0
  9
$CMLSCALE
 40
1.0
  9
$PROXYGRAPHICS
 70
     1
  9
$MEASUREMENT
 70
     0
  0
ENDSEC
  0
SECTION
  2
CLASSES
  0
CLASS
  1
DICTIONARYVAR
  2
AcDbDictionaryVar
  3
AutoCAD 2000
 90
        0
280
     0
281
     0
  0
CLASS
  1
ACDBDICTIONARYWDFLT
  2
AcDbDictionaryWithDefault
  3
AutoCAD 2000
 90
        0
280
     0
281
     0
  0
CLASS
  1
ACDBPLACEHOLDER
  2
AcDbPlaceHolder
  3
AutoCAD 2000
 90
        0
280
     0
281
     0
  0
CLASS
  1
LAYOUT
  2
AcDbLayout
  3
AutoCAD 2000
 90
        0
280
     0
281
     0
  0
CLASS
  1
RASTERVARIABLES
  2
AcDbRasterVariables
  3
ISM
 90
        0
280
     0
281
     0
  0
CLASS
  1
IMAGEDEF
  2
AcDbRasterImageDef
  3
ISM
 90
        0
280
     0
281
     0
  0
CLASS
  1
IMAGEDEF_REACTOR
  2
AcDbRasterImageDefReactor
  3
ISM
 90
        1
280
     0
281
     0
  0
CLASS
  1
IMAGE
  2
AcDbRasterImage
  3
ISM
 90
      127
280
     0
281
     1
  0
CLASS
  1
LONG_TRANSACTION
  2
AcDbLongTransaction
  3
AutoCAD 2000
 90
        0
280
     0
281
     0
  0
CLASS
  1
LWPOLYLINE
  2
AcDbPolyline
  3
AutoCAD 2000
 90
        0
280
     0
281
     1
  0
CLASS
  1
HATCH
  2
AcDbHatch
  3
AutoCAD 2000
 90
        0
280
     0
281
     1
  0
CLASS
  1
XRECORD
  2
AcDbXrecord
  3
AutoCAD 2000
 90
        0
280
     0
281
     0
  0
ENDSEC
  0
SECTION
  2
TABLES
  0
TABLE
  2
VPORT
  5
12
330
0
100
AcDbSymbolTable
 70
     4
  0
VPORT
  5
902
330
12
100
AcDbSymbolTableRecord
100
AcDbViewportTableRecord
  2
*ACTIVE
 70
     0
 10
0.0
 20
0.0
 11
1.0
 21
1.0
 12
11.81429176321769
 22
7.104974988223871
 13
0.0
 23
0.0
 14
0.5
 24
0.5
 15
0.5
 25
0.5
 16
0.0
 26
0.0
 36
1.0
 17
0.0
 27
0.0
 37
0.0
 40
3.33544353531962
 41
2.05015197568389
 42
50.0
 43
0.0
 44
0.0
 50
0.0
 51
0.0
 71
     0
 72
   100
 73
     1
 74
     1
 75
     0
 76
     0
 77
     0
 78
     0
  0
ENDTAB
  0
TABLE
  2
LTYPE
  5
D
330
0
100
AcDbSymbolTable
 70
     1
  0
LTYPE
  5
E
330
D
100
AcDbSymbolTableRecord
100
AcDbLinetypeTableRecord
  2
BYBLOCK
 70
     0
  3

 72
    65
 73
     0
 40
0.0
  0
LTYPE
  5
F
330
D
100
AcDbSymbolTableRecord
100
AcDbLinetypeTableRecord
  2
BYLAYER
 70
     0
  3

 72
    65
 73
     0
 40
0.0
  0
LTYPE
  5
5
330
D
100
AcDbSymbolTableRecord
100
AcDbLinetypeTableRecord
  2
CONTINUOUS
 70
     0
  3
Solid line
 72
    65
 73
     0
 40
0.0
  0
ENDTAB
  0
TABLE
  2
LAYER
  5
A
330
0
100
AcDbSymbolTable
 70
     6
  0
LAYER
  5
4
330
A
100
AcDbSymbolTableRecord
100
AcDbLayerTableRecord
  2
0
 70
     0
 62
     7
  6
CONTINUOUS
  0
LAYER
  5
1F
330
A
100
AcDbSymbolTableRecord
100
AcDbLayerTableRecord
  2
PROFILE
 70
     0
 62
     3
  6
CONTINUOUS
  0
LAYER
  5
1B
330
A
100
AcDbSymbolTableRecord
100
AcDbLayerTableRecord
  2
DEFPOINTS
 70
     0
 62
     7
  6
CONTINUOUS
  0
LAYER
  5
27
330
A
100
AcDbSymbolTableRecord
100
AcDbLayerTableRecord
  2
TEXT
 70
     0
 62
     5
  6
CONTINUOUS
  0
LAYER
  5
28
330
A
100
AcDbSymbolTableRecord
100
AcDbLayerTableRecord
  2
DIMENSION
 70
     0
 62
     1
  6
CONTINUOUS
  0
LAYER
  5
750
330
A
100
AcDbSymbolTableRecord
100
AcDbLayerTableRecord
  2
ALL
 70
     0
 62
     7
  6
CONTINUOUS
  0
ENDTAB
  0
TABLE
  2
STYLE
  5
B
330
0
100
AcDbSymbolTable
 70
     3
  0
STYLE
  5
C
330
B
100
AcDbSymbolTableRecord
100
AcDbTextStyleTableRecord
  2
STANDARD
 70
     0
 40
0.0
 41
1.0
 50
0.0
 71
     0
 42
0.2
  3
txt
  4

  0
STYLE
  5
751
330
B
100
AcDbSymbolTableRecord
100
AcDbTextStyleTableRecord
  2
PANROMAN
 70
     0
 40
0.25
 41
1.25
 50
10.0
 71
     0
 42
0.25
  3
par_____.pfb
  4

  0
STYLE
  5
752
330
B
100
AcDbSymbolTableRecord
100
AcDbTextStyleTableRecord
  2
TEST
 70
     0
 40
0.0
 41
1.0
 50
0.0
 71
     0
 42
0.25
  3
ROMANC.SHX
  4

  0
ENDTAB
  0
TABLE
  2
VIEW
  5
10
330
0
100
AcDbSymbolTable
 70
     0
  0
ENDTAB
  0
TABLE
  2
UCS
  5
11
330
0
100
AcDbSymbolTable
 70
     0
  0
ENDTAB
  0
TABLE
  2
APPID
  5
14
330
0
100
AcDbSymbolTable
 70
     2
  0
APPID
  5
15
330
14
100
AcDbSymbolTableRecord
100
AcDbRegAppTableRecord
  2
ACAD
 70
     0
  0
APPID
  5
171
330
14
100
AcDbSymbolTableRecord
100
AcDbRegAppTableRecord
  2
NCPOLARIS_BASE
 70
     0
  0
ENDTAB
  0
TABLE
  2
DIMSTYLE
  5
16
330
0
100
AcDbSymbolTable
 70
     2
  0
DIMSTYLE
105
1D
330
16
100
AcDbSymbolTableRecord
100
AcDbDimStyleTableRecord
  2
STANDARD_WS
 70
     0
  3

  4

  5

  6

  7

 40
1.0
 41
0.18
 42
0.0625
 43
0.38
 44
0.18
 45
0.0
 46
0.0
 47
0.0
 48
0.0
140
0.18
141
0.09
142
0.0
143
25.4
144
1.0
145
0.0
146
1.0
147
0.09
 71
     0
 72
     0
 73
     1
 74
     1
 75
     0
 76
     0
 77
     0
 78
     0
170
     0
171
     2
172
     0
173
     0
174
     0
175
     0
176
     0
177
     0
178
     0
270
     2
271
     4
272
     4
273
     2
274
     2
340
C
275
     0
280
     0
281
     0
282
     0
283
     1
284
     0
285
     0
286
     0
287
     3
288
     0
  0
DIMSTYLE
105
39
330
16
100
AcDbSymbolTableRecord
100
AcDbDimStyleTableRecord
  2
STANDARD
 70
     0
  3

  4

  5

  6

  7

 40
1.0
 41
0.18
 42
0.0625
 43
0.38
 44
0.18
 45
0.0
 46
0.0
 47
0.0
 48
0.0
140
0.18
141
0.09
142
0.0
143
25.4
144
1.0
145
0.0
146
1.0
147
0.09
 71
     0
 72
     0
 73
     1
 74
     1
 75
     0
 76
     0
 77
     0
 78
     0
170
     0
171
     2
172
     0
173
     0
174
     0
175
     0
176
     0
177
     0
178
     0
270
     2
271
     4
272
     4
273
     2
274
     2
340
C
275
     0
280
     0
281
     0
282
     0
283
     1
284
     0
285
     0
286
     0
287
     3
288
     0
  0
ENDTAB
  0
TABLE
  2
BLOCK_RECORD
  5
1
330
0
100
AcDbSymbolTable
 70
     5
  0
BLOCK_RECORD
  5
2
102
{ACAD_XDICTIONARY
360
924
102
}
330
1
100
AcDbSymbolTableRecord
100
AcDbBlockTableRecord
  2
*MODEL_SPACE
  0
BLOCK_RECORD
  5
7
102
{ACAD_XDICTIONARY
360
926
102
}
330
1
100
AcDbSymbolTableRecord
100
AcDbBlockTableRecord
  2
*PAPER_SPACE
  0
BLOCK_RECORD
  5
3A
330
1
100
AcDbSymbolTableRecord
100
AcDbBlockTableRecord
  2
F
  0
BLOCK_RECORD
  5
8E
330
1
100
AcDbSymbolTableRecord
100
AcDbBlockTableRecord
  2
D
  0
BLOCK_RECORD
  5
AC
330
1
100
AcDbSymbolTableRecord
100
AcDbBlockTableRecord
  2
CCCROWN
  0
BLOCK_RECORD
  5
5B6
330
1
100
AcDbSymbolTableRecord
100
AcDbBlockTableRecord
  2
TRACK
  0
ENDTAB
  0
ENDSEC
  0
SECTION
  2
BLOCKS
  0
BLOCK
  5
3
330
2
100
AcDbEntity
  8
0
100
AcDbBlockBegin
  2
*MODEL_SPACE
 70
     0
 10
0.0
 20
0.0
 30
0.0
  3
*MODEL_SPACE
  1

  0
ENDBLK
  5
6
330
2
100
AcDbEntity
  8
0
100
AcDbBlockEnd
  0
BLOCK
  5
8
330
7
100
AcDbEntity
 67
     1
  8
0
100
AcDbBlockBegin
  2
*PAPER_SPACE
 70
     0
 10
0.0
 20
0.0
 30
0.0
  3
*PAPER_SPACE
  1

  0
ENDBLK
  5
9
330
7
100
AcDbEntity
 67
     1
  8
0
100
AcDbBlockEnd
  0
BLOCK
  5
46
330
3A
100
AcDbEntity
  8
0
100
AcDbBlockBegin
  2
F
 70
     0
 10
0.0
 20
0.0
 30
0.0
  3
F
  1

  0
CIRCLE
  5
3B
330
3A
100
AcDbEntity
  8
0
 62
     7
100
AcDbCircle
 10
0.0410665214247617
 20
-0.016701615976765
 30
0.0
 40
0.0183435
  0
CIRCLE
  5
3C
330
3A
100
AcDbEntity
  8
0
 62
     7
100
AcDbCircle
 10
0.0068044214247617
 20
-0.000720415976765
 30
0.0
 40
0.0194689
  0
CIRCLE
  5
3D
330
3A
100
AcDbEntity
  8
0
 62
     7
100
AcDbCircle
 10
0.0369728214247617
 20
-0.013878215976765
 30
0.0
 40
0.0139466
  0
CIRCLE
  5
3E
330
3A
100
AcDbEntity
  8
0
 62
     7
100
AcDbCircle
 10
0.1138706214247617
 20
0.0152964840232351
 30
0.0
 40
0.0058588
  0
LINE
  5
3F
330
3A
100
AcDbEntity
  8
0
 62
     7
100
AcDbLine
 10
0.1550692214247617
 20
-0.023509915976765
 30
0.0
 11
0.1179283214247617
 21
-0.024196615976765
 31
0.0
  0
LINE
  5
40
330
3A
100
AcDbEntity
  8
0
 62
     7
100
AcDbLine
 10
0.0092153214247617
 20
-0.029690015976765
 30
0.0
 11
0.0457186214247617
 21
-0.028454015976765
 31
0.0
  0
LINE
  5
41
330
3A
100
AcDbEntity
  8
0
 62
     7
100
AcDbLine
 10
0.0088965214247617
 20
-0.020076515976765
 30
0.0
 11
0.0092153214247617
 21
-0.029690015976765
 31
0.0
  0
LINE
  5
42
330
3A
100
AcDbEntity
  8
0
 62
     7
100
AcDbLine
 10
0.0353574214247617
 20
-0.000025415976765
 30
0.0
 11
0.0355168214247617
 21
0.009313484023235
 31
0.0
  0
LINE
  5
43
330
3A
100
AcDbEntity
  8
0
 62
     7
100
AcDbLine
 10
0.1196817214247617
 20
0.0160428840232351
 30
0.0
 11
0.1550692214247617
 21
0.0165922840232351
 31
0.0
  0
LINE
  5
44
330
3A
100
AcDbEntity
  8
0
 62
     7
100
AcDbLine
 10
0.1537940214247617
 20
-0.023235215976765
 30
0.0
 11
0.1526782214247617
 21
0.0172789840232351
 31
0.0
  0
LINE
  5
45
330
3A
100
AcDbEntity
  8
0
 62
     7
100
AcDbLine
 10
0.1142620214247617
 20
0.009450784023235
 30
0.0
 11
0.0363138214247617
 21
0.005193384023235
 31
0.0
  0
ENDBLK
  5
47
330
3A
100
AcDbEntity
  8
0
100
AcDbBlockEnd
  0
BLOCK
  5
9B
330
8E
100
AcDbEntity
  8
0
100
AcDbBlockBegin
  2
D
 70
     0
 10
0.0
 20
0.0
 30
0.0
  3
D
  1

  0
CIRCLE
  5
8F
330
8E
100
AcDbEntity
  8
0
 62
     7
100
AcDbCircle
 10
-0.1168512632442014
 20
0.0286128993414634
 30
0.0
 40
0.0184624
  0
CIRCLE
  5
90
330
8E
100
AcDbEntity
  8
0
 62
     7
100
AcDbCircle
 10
-0.1124979632442014
 20
0.0309464993414634
 30
0.0
 40
0.0254615
  0
CIRCLE
  5
91
330
8E
100
AcDbEntity
  8
0
 62
     7
100
AcDbCircle
 10
-0.1098053632442014
 20
0.0273971993414634
 30
0.0
 40
0.0219833
  0
LINE
  5
92
330
8E
100
AcDbEntity
  8
0
 62
     7
100
AcDbLine
 10
-0.1130932632442014
 20
0.0708659993414634
 30
0.0
 11
-0.1446799632442014
 21
0.0404778993414634
 31
0.0
  0
LINE
  5
93
330
8E
100
AcDbEntity
  8
0
 62
     7
100
AcDbLine
 10
-0.1297586632442014
 20
0.0418136993414634
 30
0.0
 11
-0.1400291632442014
 21
0.0504959993414634
 31
0.0
  0
LINE
  5
94
330
8E
100
AcDbEntity
  8
0
 62
     7
100
AcDbLine
 10
-0.1082487632442014
 20
0.0710328993414634
 30
0.0
 11
-0.0784060632442014
 21
0.0398100993414634
 31
0.0
  0
LINE
  5
95
330
8E
100
AcDbEntity
  8
0
 62
     7
100
AcDbLine
 10
-0.0920669632442015
 20
0.0403824993414634
 30
0.0
 11
-0.0844133632442015
 21
0.0478244993414634
 31
0.0
  0
LINE
  5
96
330
8E
100
AcDbEntity
  8
0
 62
     7
100
AcDbLine
 10
-0.0178829632442014
 20
0.0352731993414634
 30
0.0
 11
-0.0253094632442014
 21
0.0404778993414634
 31
0.0
  0
CIRCLE
  5
97
330
8E
100
AcDbEntity
  8
0
 62
     7
100
AcDbCircle
 10
-0.0019354632442014
 20
0.0279654993414634
 30
0.0
 40
0.0175421
  0
LINE
  5
98
330
8E
100
AcDbEntity
  8
0
 62
     7
100
AcDbLine
 10
-0.0253094632442014
 20
0.0404778993414634
 30
0.0
 11
-0.0074813632442014
 21
0.0643541993414634
 31
0.0
  0
LINE
  5
99
330
8E
100
AcDbEntity
  8
0
 62
     7
100
AcDbLine
 10
0.0161602367557986
 20
0.0461547993414634
 30
0.0
 11
-0.0074813632442014
 21
0.0643541993414634
 31
0.0
  0
LINE
  5
9A
330
8E
100
AcDbEntity
  8
0
 62
     7
100
AcDbLine
 10
0.0108860367557986
 20
0.0399377993414634
 30
0.0
 11
0.0161602367557986
 21
0.0461547993414634
 31
0.0
  0
ENDBLK
  5
9C
330
8E
100
AcDbEntity
  8
0
100
AcDbBlockEnd
  0
BLOCK
  5
BC
330
AC
100
AcDbEntity
  8
0
100
AcDbBlockBegin
  2
CCCROWN
 70
     0
 10
0.0
 20
0.0
 30
0.0
  3
CCCROWN
  1

  0
CIRCLE
  5
AD
330
AC
100
AcDbEntity
  8
0
 62
     7
100
AcDbCircle
 10
1.453151451829637
 20
0.6765280889605166
 30
0.0
 40
1.344812
  0
LINE
  5
AE
330
AC
100
AcDbEntity
  8
0
 62
     7
100
AcDbLine
 10
0.8618244518296375
 20
0.5174780889605167
 30
0.0
 11
0.8767584518296375
 21
-0.6765521110394835
 31
0.0
  0
LINE
  5
AF
330
AC
100
AcDbEntity
  8
0
 62
     7
100
AcDbLine
 10
0.2226365518296377
 20
0.5174780889605167
 30
0.0
 11
0.2226365518296377
 21
0.1609270889605165
 31
0.0
  0
CIRCLE
  5
B0
330
AC
100
AcDbEntity
  8
0
 62
     7
100
AcDbCircle
 10
0.0027955518296377
 20
-0.7486109110394834
 30
0.0
 40
0.6896503000000001
  0
CIRCLE
  5
B1
330
AC
100
AcDbEntity
  8
0
 62
     7
100
AcDbCircle
 10
0.4295939518296377
 20
0.0154420889605165
 30
0.0
 40
0.1281395
  0
LINE
  5
B2
330
AC
100
AcDbEntity
  8
0
 62
     7
100
AcDbLine
 10
0.2315971518296377
 20
0.1443430889605164
 30
0.0
 11
0.2584788518296377
 21
0.1388150889605166
 31
0.0
  0
LINE
  5
B3
330
AC
100
AcDbEntity
  8
0
 62
     7
100
AcDbLine
 10
0.2226365518296377
 20
0.1609270889605165
 30
0.0
 11
0.2315971518296377
 21
0.1443430889605164
 31
0.0
  0
LINE
  5
B4
330
AC
100
AcDbEntity
  8
0
 62
     7
100
AcDbLine
 10
0.2823736518296376
 20
0.1360510889605164
 30
0.0
 11
0.3480845518296377
 21
0.1305240889605166
 31
0.0
  0
LINE
  5
B5
330
AC
100
AcDbEntity
  8
0
 62
     7
100
AcDbLine
 10
0.2584788518296377
 20
0.1388150889605166
 30
0.0
 11
0.2823736518296376
 21
0.1360510889605164
 31
0.0
  0
LINE
  5
B6
330
AC
100
AcDbEntity
  8
0
 62
     7
100
AcDbLine
 10
0.3480845518296377
 20
0.1305240889605166
 30
0.0
 11
0.3510714518296377
 21
0.1167040889605164
 31
0.0
  0
LINE
  5
B7
330
AC
100
AcDbEntity
  8
0
 62
     7
100
AcDbLine
 10
0.8767584518296375
 20
-0.6765521110394835
 30
0.0
 11
0.7304024518296377
 21
-0.6793160110394835
 31
0.0
  0
LINE
  5
B8
330
AC
100
AcDbEntity
  8
0
 62
     7
100
AcDbLine
 10
0.6855994518296377
 20
-0.6572044110394835
 30
0.0
 11
0.6885863518296378
 21
-0.6378567110394835
 31
0.0
  0
LINE
  5
B9
330
AC
100
AcDbEntity
  8
0
 62
     7
100
AcDbLine
 10
0.7304024518296377
 20
-0.6793160110394835
 30
0.0
 11
0.7065074518296378
 21
-0.6737881110394835
 31
0.0
  0
LINE
  5
BA
330
AC
100
AcDbEntity
  8
0
 62
     7
100
AcDbLine
 10
0.7065074518296378
 20
-0.6737881110394835
 30
0.0
 11
0.6855994518296377
 21
-0.6572044110394835
 31
0.0
  0
LINE
  5
BB
330
AC
100
AcDbEntity
  8
0
 62
     7
100
AcDbLine
 10
0.2226365518296377
 20
0.5174780889605167
 30
0.0
 11
0.8618244518296375
 21
0.5174780889605167
 31
0.0
  0
ENDBLK
  5
BD
330
AC
100
AcDbEntity
  8
0
100
AcDbBlockEnd
  0
BLOCK
  5
5C3
330
5B6
100
AcDbEntity
  8
0
100
AcDbBlockBegin
  2
TRACK
 70
     0
 10
0.0
 20
0.0
 30
0.0
  3
TRACK
  1

  0
LINE
  5
5B7
330
5B6
100
AcDbEntity
  8
PROFILE
100
AcDbLine
 10
16.53207238374206
 20
4.044320932551642
 30
0.0
 11
16.53207238374207
 21
5.014320932551641
 31
0.0
  0
LINE
  5
5B8
330
5B6
100
AcDbEntity
  8
PROFILE
100
AcDbLine
 10
15.60207238374206
 20
4.044320932551642
 30
0.0
 11
15.60207238374206
 21
5.014320932551641
 31
0.0
  0
LINE
  5
5B9
330
5B6
100
AcDbEntity
  8
PROFILE
100
AcDbLine
 10
15.47707238374207
 20
3.919320932551641
 30
0.0
 11
15.47707238374206
 21
5.13932093255164
 31
0.0
  0
LINE
  5
5BA
330
5B6
100
AcDbEntity
  8
PROFILE
100
AcDbLine
 10
16.65707238374206
 20
3.919320932551642
 30
0.0
 11
16.65707238374206
 21
5.13932093255164
 31
0.0
  0
LINE
  5
5BB
330
5B6
100
AcDbEntity
  8
PROFILE
100
AcDbLine
 10
15.60207238374206
 20
4.044320932551642
 30
0.0
 11
15.81707238374206
 21
4.044320932551641
 31
0.0
  0
LINE
  5
5BC
330
5B6
100
AcDbEntity
  8
PROFILE
100
AcDbLine
 10
15.47707238374207
 20
3.919320932551641
 30
0.0
 11
15.81707238374206
 21
3.919320932551641
 31
0.0
  0
LINE
  5
5BD
330
5B6
100
AcDbEntity
  8
PROFILE
100
AcDbLine
 10
15.81707238374207
 20
3.919320932551642
 30
0.0
 11
15.81707238374206
 21
4.044320932551641
 31
0.0
  0
LINE
  5
5BE
330
5B6
100
AcDbEntity
  8
PROFILE
100
AcDbLine
 10
16.31707238374207
 20
3.919320932551641
 30
0.0
 11
16.65707238374206
 21
3.919320932551642
 31
0.0
  0
LINE
  5
5BF
330
5B6
100
AcDbEntity
  8
PROFILE
100
AcDbLine
 10
16.31707238374207
 20
3.919320932551642
 30
0.0
 11
16.31707238374206
 21
4.04432093255164
 31
0.0
  0
LINE
  5
5C0
330
5B6
100
AcDbEntity
  8
PROFILE
100
AcDbLine
 10
16.31707238374206
 20
4.04432093255164
 30
0.0
 11
16.53207238374206
 21
4.044320932551642
 31
0.0
  0
LINE
  5
5C1
330
5B6
100
AcDbEntity
  8
PROFILE
100
AcDbLine
 10
15.60207238374206
 20
5.014320932551641
 30
0.0
 11
16.53207238374207
 21
5.014320932551641
 31
0.0
  0
LINE
  5
5C2
330
5B6
100
AcDbEntity
  8
PROFILE
100
AcDbLine
 10
15.47707238374206
 20
5.13932093255164
 30
0.0
 11
16.65707238374206
 21
5.13932093255164
 31
0.0
  0
ENDBLK
  5
5C4
330
5B6
100
AcDbEntity
  8
0
100
AcDbBlockEnd
  0
ENDSEC
  0
SECTION
  2
ENTITIES
  0
LWPOLYLINE
  5
860
330
2
100
AcDbEntity
  8
ALL
 62
     3
100
AcDbPolyline
 90
       44
 70
     0
 43
0.0
 10
10.79559048818634
 20
6.997688006178273
 10
10.79572940029558
 20
6.998365818440313
 10
10.79762318296833
 20
7.008061188754319
 10
10.79951815595654
 20
7.018097499426354
 10
10.80144498097685
 20
7.028514582622457
 10
10.80343181733027
 20
7.039379554806438
 10
10.80550619871397
 20
7.050766353516487
 10
10.80769565882508
 20
7.062748916290822
 10
10.81002773136072
 20
7.075401180667662
 10
10.81252995001806
 20
7.088797084185253
 10
10.81522984849422
 20
7.103010564381755
 10
10.81815496048635
 20
7.118115558795417
 10
10.8213336056237
 20
7.134132100516475
 10
10.82479724726391
 20
7.150864604843243
 10
10.82857813469674
 20
7.168063582626111
 10
10.83270851721192
 20
7.185479544715414
 10
10.83722064409923
 20
7.202863001961511
 10
10.84214676464841
 20
7.219964465214794
 10
10.84751912814921
 20
7.236534445325596
 10
10.85336998389139
 20
7.252323453144279
 10
10.85971915459514
 20
7.26714990709943
 10
10.86653675670245
 20
7.281103855932493
 10
10.87378048008577
 20
7.29434325596305
 10
10.88140801461753
 20
7.307026063510826
 10
10.88937705017016
 20
7.319310234895433
 10
10.8976452766161
 20
7.331353726436511
 10
10.9061703838278
 20
7.343314494453729
 10
10.91491006167768
 20
7.355350495266727
 10
10.92383535796888
 20
7.367586031171193
 10
10.93297075222717
 20
7.380010788367067
 10
10.94235408190903
 20
7.392580799030249
 10
10.95202318447096
 20
7.405252095336785
 10
10.96201589736939
 20
7.417980709462576
 10
10.97237005806084
 20
7.43072267358361
 10
10.98312350400176
 20
7.443434019875817
 10
10.99431407264863
 20
7.456070780515212
 10
11.00605016109139
 20
7.468616991023147
 10
11.01872240495379
 20
7.481168700302682
 10
11.03279199949308
 20
7.493849960602298
 10
11.04872013996646
 20
7.506784824170474
 10
11.06696802163118
 20
7.520097343255664
 10
11.08799683974446
 20
7.533911570106405
 10
11.11226778956353
 20
7.548351556971121
 10
11.1402420663456
 20
7.56354135609832
  0
LINE
  5
861
330
2
100
AcDbEntity
  8
ALL
 62
     3
100
AcDbLine
 10
10.63253897431296
 20
8.142869995322378
 30
0.0
 11
10.63253897431296
 21
6.728482598473455
 31
0.0
  0
LWPOLYLINE
  5
862
330
2
100
AcDbEntity
  8
ALL
 62
     3
100
AcDbPolyline
 90
       24
 70
     0
 43
0.0
 10
10.63253897431296
 20
6.728482598473455
 10
10.63850806190391
 20
6.728160848429958
 10
10.64503952545331
 20
6.729368888906158
 10
10.65194603457091
 20
6.731855153287575
 10
10.65904025886644
 20
6.735368074959701
 10
10.66613486794965
 20
6.739656087308027
 10
10.67304253143032
 20
6.744467623718016
 10
10.67957591891818
 20
6.749551117575187
 10
10.68554770002299
 20
6.754655002265032
 10
10.69081025263059
 20
6.759582272966646
 10
10.69537478773123
 20
6.764354172033627
 10
10.69929222459129
 20
6.769046503613175
 10
10.70261348247707
 20
6.773735071852463
 10
10.70538948065495
 20
6.778495680898721
 10
10.70767113839129
 20
6.78340413489915
 10
10.7095093749524
 20
6.788536238000922
 10
10.71095510960466
 20
6.793967794351267
 10
10.71207215345967
 20
6.799746962818268
 10
10.71297588500996
 20
6.805811321153676
 10
10.71379457459338
 20
6.812070801830124
 10
10.7146564925477
 20
6.818435337320217
 10
10.71568990921076
 20
6.824814860096616
 10
10.71702309492036
 20
6.831119302631982
 10
10.71781378328482
 20
6.833875491466024
  0
POLYLINE
  5
863
330
2
100
AcDbEntity
  8
ALL
 62
     3
100
AcDb2dPolyline
 66
     1
 10
0.0
 20
0.0
 30
0.0
 70
     4
 75
     6
  0
VERTEX
  5
864
330
863
100
AcDbEntity
  8
ALL
 62
     3
100
AcDbVertex
100
AcDb2dVertex
 10
10.72095461788505
 20
6.842768851250816
 30
0.0
 70
    16
  0
VERTEX
  5
865
330
863
100
AcDbEntity
  8
ALL
 62
     3
100
AcDbVertex
100
AcDb2dVertex
 10
10.72095461788505
 20
6.842768851250816
 30
0.0
 70
     8
  0
VERTEX
  5
866
330
863
100
AcDbEntity
  8
ALL
 62
     3
100
AcDbVertex
100
AcDb2dVertex
 10
10.72924609475222
 20
6.84565177004459
 30
0.0
 70
     8
  0
VERTEX
  5
867
330
863
100
AcDbEntity
  8
ALL
 62
     3
100
AcDbVertex
100
AcDb2dVertex
 10
10.73678801646036
 20
6.848710242610287
 30
0.0
 70
     8
  0
VERTEX
  5
868
330
863
100
AcDbEntity
  8
ALL
 62
     3
100
AcDbVertex
100
AcDb2dVertex
 10
10.74361237114148
 20
6.851934216136932
 30
0.0
 70
     8
  0
VERTEX
  5
869
330
863
100
AcDbEntity
  8
ALL
 62
     3
100
AcDbVertex
100
AcDb2dVertex
 10
10.74975114692762
 20
6.855313637813544
 30
0.0
 70
     8
  0
VERTEX
  5
86A
330
863
100
AcDbEntity
  8
ALL
 62
     3
100
AcDbVertex
100
AcDb2dVertex
 10
10.75523633195085
 20
6.858838454829204
 30
0.0
 70
     8
  0
VERTEX
  5
86B
330
863
100
AcDbEntity
  8
ALL
 62
     3
100
AcDbVertex
100
AcDb2dVertex
 10
10.76009991434321
 20
6.862498614372932
 30
0.0
 70
     8
  0
VERTEX
  5
86C
330
863
100
AcDbEntity
  8
ALL
 62
     3
100
AcDbVertex
100
AcDb2dVertex
 10
10.76437388223672
 20
6.866284063633778
 30
0.0
 70
     8
  0
VERTEX
  5
86D
330
863
100
AcDbEntity
  8
ALL
 62
     3
100
AcDbVertex
100
AcDb2dVertex
 10
10.76809022376346
 20
6.870184749800793
 30
0.0
 70
     8
  0
VERTEX
  5
86E
330
863
100
AcDbEntity
  8
ALL
 62
     3
100
AcDbVertex
100
AcDb2dVertex
 10
10.77128567042253
 20
6.874199746167882
 30
0.0
 70
     8
  0
VERTEX
  5
86F
330
863
100
AcDbEntity
  8
ALL
 62
     3
100
AcDbVertex
100
AcDb2dVertex
 10
10.77401592718136
 20
6.878364630448552
 30
0.0
 70
     8
  0
VERTEX
  5
870
330
863
100
AcDbEntity
  8
ALL
 62
     3
100
AcDbVertex
100
AcDb2dVertex
 10
10.77634144237448
 20
6.882724106461219
 30
0.0
 70
     8
  0
VERTEX
  5
871
330
863
100
AcDbEntity
  8
ALL
 62
     3
100
AcDbVertex
100
AcDb2dVertex
 10
10.77832266433638
 20
6.887322878024243
 30
0.0
 70
     8
  0
VERTEX
  5
872
330
863
100
AcDbEntity
  8
ALL
 62
     3
100
AcDbVertex
100
AcDb2dVertex
 10
10.78002004140161
 20
6.892205648956015
 30
0.0
 70
     8
  0
VERTEX
  5
873
330
863
100
AcDbEntity
  8
ALL
 62
     3
100
AcDbVertex
100
AcDb2dVertex
 10
10.78149402190464
 20
6.897417123074952
 30
0.0
 70
     8
  0
VERTEX
  5
874
330
863
100
AcDbEntity
  8
ALL
 62
     3
100
AcDbVertex
100
AcDb2dVertex
 10
10.78280505418003
 20
6.903002004199415
 30
0.0
 70
     8
  0
VERTEX
  5
875
330
863
100
AcDbEntity
  8
ALL
 62
     3
100
AcDbVertex
100
AcDb2dVertex
 10
10.78401358656225
 20
6.909004996147822
 30
0.0
 70
     8
  0
VERTEX
  5
876
330
863
100
AcDbEntity
  8
ALL
 62
     3
100
AcDbVertex
100
AcDb2dVertex
 10
10.7851771059614
 20
6.915511662970637
 30
0.0
 70
     8
  0
VERTEX
  5
877
330
863
100
AcDbEntity
  8
ALL
 62
     3
100
AcDbVertex
100
AcDb2dVertex
 10
10.78634125358979
 20
6.922771009646802
 30
0.0
 70
     8
  0
VERTEX
  5
878
330
863
100
AcDbEntity
  8
ALL
 62
     3
100
AcDbVertex
100
AcDb2dVertex
 10
10.78754870923532
 20
6.931072901387303
 30
0.0
 70
     8
  0
VERTEX
  5
879
330
863
100
AcDbEntity
  8
ALL
 62
     3
100
AcDbVertex
100
AcDb2dVertex
 10
10.78884215268584
 20
6.940707203403158
 30
0.0
 70
     8
  0
VERTEX
  5
87A
330
863
100
AcDbEntity
  8
ALL
 62
     3
100
AcDbVertex
100
AcDb2dVertex
 10
10.79026426372924
 20
6.951963780905381
 30
0.0
 70
     8
  0
VERTEX
  5
87B
330
863
100
AcDbEntity
  8
ALL
 62
     3
100
AcDbVertex
100
AcDb2dVertex
 10
10.79185772215342
 20
6.965132499104961
 30
0.0
 70
     8
  0
VERTEX
  5
87C
330
863
100
AcDbEntity
  8
ALL
 62
     3
100
AcDbVertex
100
AcDb2dVertex
 10
10.79366520774624
 20
6.980503223212942
 30
0.0
 70
     8
  0
VERTEX
  5
87D
330
863
100
AcDbEntity
  8
ALL
 62
     3
100
AcDbVertex
100
AcDb2dVertex
 10
10.79572940029558
 20
6.998365818440313
 30
0.0
 70
     8
  0
VERTEX
  5
87E
330
863
100
AcDbEntity
  8
ALL
 62
     3
100
AcDbVertex
100
AcDb2dVertex
 10
10.74409306363808
 20
6.850213627173054
 30
0.0
 70
    16
  0
VERTEX
  5
87F
330
863
100
AcDbEntity
  8
ALL
 62
     3
100
AcDbVertex
100
AcDb2dVertex
 10
10.77369703160074
 20
6.869062786118697
 30
0.0
 70
    16
  0
VERTEX
  5
880
330
863
100
AcDbEntity
  8
ALL
 62
     3
100
AcDbVertex
100
AcDb2dVertex
 10
10.78446213652105
 20
6.904068306629718
 30
0.0
 70
    16
  0
VERTEX
  5
881
330
863
100
AcDbEntity
  8
ALL
 62
     3
100
AcDbVertex
100
AcDb2dVertex
 10
10.7898446732994
 20
6.947152078376157
 30
0.0
 70
    16
  0
VERTEX
  5
882
330
863
100
AcDbEntity
  8
ALL
 62
     3
100
AcDbVertex
100
AcDb2dVertex
 10
10.79572940029558
 20
6.998365818440313
 30
0.0
 70
    16
  0
SEQEND
  5
883
330
863
100
AcDbEntity
  8
ALL
 62
     3
  0
POLYLINE
  5
884
330
2
100
AcDbEntity
  8
ALL
 62
     3
100
AcDb2dPolyline
 66
     1
 10
0.0
 20
0.0
 30
0.0
 70
     4
 75
     6
  0
VERTEX
  5
885
330
884
100
AcDbEntity
  8
ALL
 62
     3
100
AcDbVertex
100
AcDb2dVertex
 10
10.63253897431296
 20
8.142869995322378
 30
0.0
 70
    16
  0
VERTEX
  5
886
330
884
100
AcDbEntity
  8
ALL
 62
     3
100
AcDbVertex
100
AcDb2dVertex
 10
10.63253897431296
 20
8.142869995322378
 30
0.0
 70
     8
  0
VERTEX
  5
887
330
884
100
AcDbEntity
  8
ALL
 62
     3
100
AcDbVertex
100
AcDb2dVertex
 10
10.64902273153438
 20
8.140981736361176
 30
0.0
 70
     8
  0
VERTEX
  5
888
330
884
100
AcDbEntity
  8
ALL
 62
     3
100
AcDbVertex
100
AcDb2dVertex
 10
10.66345128230157
 20
8.139151307297801
 30
0.0
 70
     8
  0
VERTEX
  5
889
330
884
100
AcDbEntity
  8
ALL
 62
     3
100
AcDbVertex
100
AcDb2dVertex
 10
10.67601345534475
 20
8.137335187283845
 30
0.0
 70
     8
  0
VERTEX
  5
88A
330
884
100
AcDbEntity
  8
ALL
 62
     3
100
AcDbVertex
100
AcDb2dVertex
 10
10.68689807939411
 20
8.135489855470872
 30
0.0
 70
     8
  0
VERTEX
  5
88B
330
884
100
AcDbEntity
  8
ALL
 62
     3
100
AcDbVertex
100
AcDb2dVertex
 10
10.69629398317987
 20
8.133571791010446
 30
0.0
 70
     8
  0
VERTEX
  5
88C
330
884
100
AcDbEntity
  8
ALL
 62
     3
100
AcDbVertex
100
AcDb2dVertex
 10
10.70438999543222
 20
8.13153747305413
 30
0.0
 70
     8
  0
VERTEX
  5
88D
330
884
100
AcDbEntity
  8
ALL
 62
     3
100
AcDbVertex
100
AcDb2dVertex
 10
10.71137494488138
 20
8.129343380753461
 30
0.0
 70
     8
  0
VERTEX
  5
88E
330
884
100
AcDbEntity
  8
ALL
 62
     3
100
AcDbVertex
100
AcDb2dVertex
 10
10.71743766025756
 20
8.126945993260058
 30
0.0
 70
     8
  0
VERTEX
  5
88F
330
884
100
AcDbEntity
  8
ALL
 62
     3
100
AcDbVertex
100
AcDb2dVertex
 10
10.72275090078923
 20
8.124302819955609
 30
0.0
 70
     8
  0
VERTEX
  5
890
330
884
100
AcDbEntity
  8
ALL
 62
     3
100
AcDbVertex
100
AcDb2dVertex
 10
10.7274231476982
 20
8.121375491142636
 30
0.0
 70
     8
  0
VERTEX
  5
891
330
884
100
AcDbEntity
  8
ALL
 62
     3
100
AcDbVertex
100
AcDb2dVertex
 10
10.7315468127045
 20
8.118126667353756
 30
0.0
 70
     8
  0
VERTEX
  5
892
330
884
100
AcDbEntity
  8
ALL
 62
     3
100
AcDbVertex
100
AcDb2dVertex
 10
10.73521430752822
 20
8.114519009121615
 30
0.0
 70
     8
  0
VERTEX
  5
893
330
884
100
AcDbEntity
  8
ALL
 62
     3
100
AcDbVertex
100
AcDb2dVertex
 10
10.7385180438894
 20
8.110515176978886
 30
0.0
 70
     8
  0
VERTEX
  5
894
330
884
100
AcDbEntity
  8
ALL
 62
     3
100
AcDbVertex
100
AcDb2dVertex
 10
10.74155043350812
 20
8.106077831458186
 30
0.0
 70
     8
  0
VERTEX
  5
895
330
884
100
AcDbEntity
  8
ALL
 62
     3
100
AcDbVertex
100
AcDb2dVertex
 10
10.74440388810443
 20
8.101169633092162
 30
0.0
 70
     8
  0
VERTEX
  5
896
330
884
100
AcDbEntity
  8
ALL
 62
     3
100
AcDbVertex
100
AcDb2dVertex
 10
10.7471708193984
 20
8.095753242413515
 30
0.0
 70
     8
  0
VERTEX
  5
897
330
884
100
AcDbEntity
  8
ALL
 62
     3
100
AcDbVertex
100
AcDb2dVertex
 10
10.74992702473544
 20
8.089775791925212
 30
0.0
 70
     8
  0
VERTEX
  5
898
330
884
100
AcDbEntity
  8
ALL
 62
     3
100
AcDbVertex
100
AcDb2dVertex
 10
10.75268184396225
 20
8.083122302011879
 30
0.0
 70
     8
  0
VERTEX
  5
899
330
884
100
AcDbEntity
  8
ALL
 62
     3
100
AcDbVertex
100
AcDb2dVertex
 10
10.75542800255092
 20
8.075662265028434
 30
0.0
 70
     8
  0
VERTEX
  5
89A
330
884
100
AcDbEntity
  8
ALL
 62
     3
100
AcDbVertex
100
AcDb2dVertex
 10
10.7581582259735
 20
8.067265173329879
 30
0.0
 70
     8
  0
VERTEX
  5
89B
330
884
100
AcDbEntity
  8
ALL
 62
     3
100
AcDbVertex
100
AcDb2dVertex
 10
10.76086523970207
 20
8.057800519271133
 30
0.0
 70
     8
  0
VERTEX
  5
89C
330
884
100
AcDbEntity
  8
ALL
 62
     3
100
AcDbVertex
100
AcDb2dVertex
 10
10.76354176920865
 20
8.047137795207198
 30
0.0
 70
     8
  0
VERTEX
  5
89D
330
884
100
AcDbEntity
  8
ALL
 62
     3
100
AcDbVertex
100
AcDb2dVertex
 10
10.76618053996534
 20
8.035146493492995
 30
0.0
 70
     8
  0
VERTEX
  5
89E
330
884
100
AcDbEntity
  8
ALL
 62
     3
100
AcDbVertex
100
AcDb2dVertex
 10
10.7687742774442
 20
8.021696106483496
 30
0.0
 70
     8
  0
VERTEX
  5
89F
330
884
100
AcDbEntity
  8
ALL
 62
     3
100
AcDbVertex
100
AcDb2dVertex
 10
10.67940378326922
 20
8.137718846363419
 30
0.0
 70
    16
  0
VERTEX
  5
8A0
330
884
100
AcDbEntity
  8
ALL
 62
     3
100
AcDbVertex
100
AcDb2dVertex
 10
10.72526065058062
 20
8.129578697699493
 30
0.0
 70
    16
  0
VERTEX
  5
8A1
330
884
100
AcDbEntity
  8
ALL
 62
     3
100
AcDbVertex
100
AcDb2dVertex
 10
10.74710800960933
 20
8.101572248066965
 30
0.0
 70
    16
  0
VERTEX
  5
8A2
330
884
100
AcDbEntity
  8
ALL
 62
     3
100
AcDbVertex
100
AcDb2dVertex
 10
10.76192415478476
 20
8.059625259031442
 30
0.0
 70
    16
  0
VERTEX
  5
8A3
330
884
100
AcDbEntity
  8
ALL
 62
     3
100
AcDbVertex
100
AcDb2dVertex
 10
10.7687742774442
 20
8.021696106483496
 30
0.0
 70
    16
  0
SEQEND
  5
8A4
330
884
100
AcDbEntity
  8
ALL
 62
     3
  0
POLYLINE
  5
8A5
330
2
100
AcDbEntity
  8
ALL
 62
     3
100
AcDb2dPolyline
 66
     1
 10
0.0
 20
0.0
 30
0.0
 70
     4
 75
     6
  0
VERTEX
  5
8A6
330
8A5
100
AcDbEntity
  8
ALL
 62
     3
100
AcDbVertex
100
AcDb2dVertex
 10
10.7687742774442
 20
8.021696106483496
 30
0.0
 70
    16
  0
VERTEX
  5
8A7
330
8A5
100
AcDbEntity
  8
ALL
 62
     3
100
AcDbVertex
100
AcDb2dVertex
 10
10.7687742774442
 20
8.021696106483496
 30
0.0
 70
     8
  0
VERTEX
  5
8A8
330
8A5
100
AcDbEntity
  8
ALL
 62
     3
100
AcDbVertex
100
AcDb2dVertex
 10
10.79080438625395
 20
8.015202942346355
 30
0.0
 70
     8
  0
VERTEX
  5
8A9
330
8A5
100
AcDbEntity
  8
ALL
 62
     3
100
AcDbVertex
100
AcDb2dVertex
 10
10.81133155465995
 20
8.009307294709351
 30
0.0
 70
     8
  0
VERTEX
  5
8AA
330
8A5
100
AcDbEntity
  8
ALL
 62
     3
100
AcDbVertex
100
AcDb2dVertex
 10
10.83039355550157
 20
8.003946687557608
 30
0.0
 70
     8
  0
VERTEX
  5
8AB
330
8A5
100
AcDbEntity
  8
ALL
 62
     3
100
AcDbVertex
100
AcDb2dVertex
 10
10.84802816161814
 20
7.99905864487625
 30
0.0
 70
     8
  0
VERTEX
  5
8AC
330
8A5
100
AcDbEntity
  8
ALL
 62
     3
100
AcDbVertex
100
AcDb2dVertex
 10
10.86427314584902
 20
7.994580690650345
 30
0.0
 70
     8
  0
VERTEX
  5
8AD
330
8A5
100
AcDbEntity
  8
ALL
 62
     3
100
AcDbVertex
100
AcDb2dVertex
 10
10.87916628103356
 20
7.99045034886499
 30
0.0
 70
     8
  0
VERTEX
  5
8AE
330
8A5
100
AcDbEntity
  8
ALL
 62
     3
100
AcDbVertex
100
AcDb2dVertex
 10
10.8927453400111
 20
7.986605143505308
 30
0.0
 70
     8
  0
VERTEX
  5
8AF
330
8A5
100
AcDbEntity
  8
ALL
 62
     3
100
AcDbVertex
100
AcDb2dVertex
 10
10.90504809562101
 20
7.982982598556369
 30
0.0
 70
     8
  0
VERTEX
  5
8B0
330
8A5
100
AcDbEntity
  8
ALL
 62
     3
100
AcDbVertex
100
AcDb2dVertex
 10
10.91614248766907
 20
7.979511365537583
 30
0.0
 70
     8
  0
VERTEX
  5
8B1
330
8A5
100
AcDbEntity
  8
ALL
 62
     3
100
AcDbVertex
100
AcDb2dVertex
 10
10.92621712382691
 20
7.976084606105453
 30
0.0
 70
     8
  0
VERTEX
  5
8B2
330
8A5
100
AcDbEntity
  8
ALL
 62
     3
100
AcDbVertex
100
AcDb2dVertex
 10
10.93549077873261
 20
7.972586609450737
 30
0.0
 70
     8
  0
VERTEX
  5
8B3
330
8A5
100
AcDbEntity
  8
ALL
 62
     3
100
AcDbVertex
100
AcDb2dVertex
 10
10.94418222702422
 20
7.968901664764282
 30
0.0
 70
     8
  0
VERTEX
  5
8B4
330
8A5
100
AcDbEntity
  8
ALL
 62
     3
100
AcDbVertex
100
AcDb2dVertex
 10
10.95251024333984
 20
7.964914061236819
 30
0.0
 70
     8
  0
VERTEX
  5
8B5
330
8A5
100
AcDbEntity
  8
ALL
 62
     3
100
AcDbVertex
100
AcDb2dVertex
 10
10.96069360231753
 20
7.960508088059165
 30
0.0
 70
     8
  0
VERTEX
  5
8B6
330
8A5
100
AcDbEntity
  8
ALL
 62
     3
100
AcDbVertex
100
AcDb2dVertex
 10
10.96895107859535
 20
7.955568034422136
 30
0.0
 70
     8
  0
VERTEX
  5
8B7
330
8A5
100
AcDbEntity
  8
ALL
 62
     3
100
AcDbVertex
100
AcDb2dVertex
 10
10.9775014468114
 20
7.949978189516465
 30
0.0
 70
     8
  0
VERTEX
  5
8B8
330
8A5
100
AcDbEntity
  8
ALL
 62
     3
100
AcDbVertex
100
AcDb2dVertex
 10
10.98650824294976
 20
7.943658428673765
 30
0.0
 70
     8
  0
VERTEX
  5
8B9
330
8A5
100
AcDbEntity
  8
ALL
 62
     3
100
AcDbVertex
100
AcDb2dVertex
 10
10.99591404837876
 20
7.936670971788637
 30
0.0
 70
     8
  0
VERTEX
  5
8BA
330
8A5
100
AcDbEntity
  8
ALL
 62
     3
100
AcDbVertex
100
AcDb2dVertex
 10
11.00560620581272
 20
7.929113624896509
 30
0.0
 70
     8
  0
VERTEX
  5
8BB
330
8A5
100
AcDbEntity
  8
ALL
 62
     3
100
AcDbVertex
100
AcDb2dVertex
 10
11.01547205796599
 20
7.921084194032808
 30
0.0
 70
     8
  0
VERTEX
  5
8BC
330
8A5
100
AcDbEntity
  8
ALL
 62
     3
100
AcDbVertex
100
AcDb2dVertex
 10
11.02539894755288
 20
7.912680485232933
 30
0.0
 70
     8
  0
VERTEX
  5
8BD
330
8A5
100
AcDbEntity
  8
ALL
 62
     3
100
AcDbVertex
100
AcDb2dVertex
 10
11.03527421728776
 20
7.904000304532254
 30
0.0
 70
     8
  0
VERTEX
  5
8BE
330
8A5
100
AcDbEntity
  8
ALL
 62
     3
100
AcDbVertex
100
AcDb2dVertex
 10
11.04498520988495
 20
7.895141457966254
 30
0.0
 70
     8
  0
VERTEX
  5
8BF
330
8A5
100
AcDbEntity
  8
ALL
 62
     3
100
AcDbVertex
100
AcDb2dVertex
 10
11.0544192680588
 20
7.886201751570305
 30
0.0
 70
     8
  0
VERTEX
  5
8C0
330
8A5
100
AcDbEntity
  8
ALL
 62
     3
100
AcDbVertex
100
AcDb2dVertex
 10
11.06348595439342
 20
7.877225986227338
 30
0.0
 70
     8
  0
VERTEX
  5
8C1
330
8A5
100
AcDbEntity
  8
ALL
 62
     3
100
AcDbVertex
100
AcDb2dVertex
 10
11.07218371095214
 20
7.868046942210249
 30
0.0
 70
     8
  0
VERTEX
  5
8C2
330
8A5
100
AcDbEntity
  8
ALL
 62
     3
100
AcDbVertex
100
AcDb2dVertex
 10
11.08053319966802
 20
7.858444394639499
 30
0.0
 70
     8
  0
VERTEX
  5
8C3
330
8A5
100
AcDbEntity
  8
ALL
 62
     3
100
AcDbVertex
100
AcDb2dVertex
 10
11.08855508247415
 20
7.848198118635516
 30
0.0
 70
     8
  0
VERTEX
  5
8C4
330
8A5
100
AcDbEntity
  8
ALL
 62
     3
100
AcDbVertex
100
AcDb2dVertex
 10
11.09627002130363
 20
7.837087889318731
 30
0.0
 70
     8
  0
VERTEX
  5
8C5
330
8A5
100
AcDbEntity
  8
ALL
 62
     3
100
AcDbVertex
100
AcDb2dVertex
 10
11.10369867808955
 20
7.824893481809604
 30
0.0
 70
     8
  0
VERTEX
  5
8C6
330
8A5
100
AcDbEntity
  8
ALL
 62
     3
100
AcDbVertex
100
AcDb2dVertex
 10
11.110861714765
 20
7.811394671228534
 30
0.0
 70
     8
  0
VERTEX
  5
8C7
330
8A5
100
AcDbEntity
  8
ALL
 62
     3
100
AcDbVertex
100
AcDb2dVertex
 10
11.11777979326306
 20
7.796371232695954
 30
0.0
 70
     8
  0
VERTEX
  5
8C8
330
8A5
100
AcDbEntity
  8
ALL
 62
     3
100
AcDbVertex
100
AcDb2dVertex
 10
11.12442173314869
 20
7.779541752315631
 30
0.0
 70
     8
  0
VERTEX
  5
8C9
330
8A5
100
AcDbEntity
  8
ALL
 62
     3
100
AcDbVertex
100
AcDb2dVertex
 10
11.13054898451427
 20
7.760380060124654
 30
0.0
 70
     8
  0
VERTEX
  5
8CA
330
8A5
100
AcDbEntity
  8
ALL
 62
     3
100
AcDbVertex
100
AcDb2dVertex
 10
11.13587115508407
 20
7.738298797143451
 30
0.0
 70
     8
  0
VERTEX
  5
8CB
330
8A5
100
AcDbEntity
  8
ALL
 62
     3
100
AcDbVertex
100
AcDb2dVertex
 10
11.14009785258237
 20
7.71271060439242
 30
0.0
 70
     8
  0
VERTEX
  5
8CC
330
8A5
100
AcDbEntity
  8
ALL
 62
     3
100
AcDbVertex
100
AcDb2dVertex
 10
11.1429386847334
 20
7.683028122891962
 30
0.0
 70
     8
  0
VERTEX
  5
8CD
330
8A5
100
AcDbEntity
  8
ALL
 62
     3
100
AcDbVertex
100
AcDb2dVertex
 10
11.14410325926145
 20
7.648663993662531
 30
0.0
 70
     8
  0
VERTEX
  5
8CE
330
8A5
100
AcDbEntity
  8
ALL
 62
     3
100
AcDbVertex
100
AcDb2dVertex
 10
11.14330118389075
 20
7.609030857724499
 30
0.0
 70
     8
  0
VERTEX
  5
8CF
330
8A5
100
AcDbEntity
  8
ALL
 62
     3
100
AcDbVertex
100
AcDb2dVertex
 10
11.1402420663456
 20
7.56354135609832
 30
0.0
 70
     8
  0
VERTEX
  5
8D0
330
8A5
100
AcDbEntity
  8
ALL
 62
     3
100
AcDbVertex
100
AcDb2dVertex
 10
10.8295587306657
 20
8.003528779215407
 30
0.0
 70
    16
  0
VERTEX
  5
8D1
330
8A5
100
AcDbEntity
  8
ALL
 62
     3
100
AcDbVertex
100
AcDb2dVertex
 10
10.91825908792282
 20
7.981273965000533
 30
0.0
 70
    16
  0
VERTEX
  5
8D2
330
8A5
100
AcDbEntity
  8
ALL
 62
     3
100
AcDbVertex
100
AcDb2dVertex
 10
10.97204366999767
 20
7.958143545013236
 30
0.0
 70
    16
  0
VERTEX
  5
8D3
330
8A5
100
AcDbEntity
  8
ALL
 62
     3
100
AcDbVertex
100
AcDb2dVertex
 10
11.05857491295489
 20
7.886020992045311
 30
0.0
 70
    16
  0
VERTEX
  5
8D4
330
8A5
100
AcDbEntity
  8
ALL
 62
     3
100
AcDbVertex
100
AcDb2dVertex
 10
11.12017228653557
 20
7.814982996227322
 30
0.0
 70
    16
  0
VERTEX
  5
8D5
330
8A5
100
AcDbEntity
  8
ALL
 62
     3
100
AcDbVertex
100
AcDb2dVertex
 10
11.15166722916598
 20
7.693177278223125
 30
0.0
 70
    16
  0
VERTEX
  5
8D6
330
8A5
100
AcDbEntity
  8
ALL
 62
     3
100
AcDbVertex
100
AcDb2dVertex
 10
11.1402420663456
 20
7.56354135609832
 30
0.0
 70
    16
  0
SEQEND
  5
8D7
330
8A5
100
AcDbEntity
  8
ALL
 62
     3
  0
TEXT
  5
8D8
330
2
100
AcDbEntity
  8
ALL
 62
     1
100
AcDbText
 10
10.24652071177966
 20
5.873805880257968
 30
0.0
 40
0.075
  1
1/2" x 1 7/16"
 41
1.25
  7
TEST
 72
     1
 11
10.8425028546368
 21
5.873805880257968
 31
0.0
100
AcDbText
  0
TEXT
  5
8D9
330
2
100
AcDbEntity
  8
ALL
 62
     1
100
AcDbText
 10
10.3479406299672
 20
6.01859730445061
 30
0.0
 40
0.125
  1
BWP-7008
 41
1.25
  7
PANROMAN
 72
     1
 11
10.8425028546368
 21
6.01859730445061
 31
0.0
100
AcDbText
  0
VIEWPORT
  5
10F
330
7
100
AcDbEntity
 67
     1
  8
0
100
AcDbViewport
 10
7.329044117647058
 20
4.494742024799509
 30
0.0
 40
14.65808823529411
 41
9.0
 68
     1
 69
     1
1001
ACAD
1000
MVIEW
1002
{
1070
    16
1010
0.0
1020
0.0
1030
0.0
1010
0.0
1020
0.0
1030
1.0
1040
0.0
1040
9.0
1040
7.329044117647058
1040
4.494742024799509
1040
50.0
1040
0.0
1040
0.0
1070
     0
1070
   100
1070
     1
1070
     1
1070
     0
1070
     0
1070
     0
1070
     0
1040
0.0
1040
0.0
1040
0.0
1040
0.5
1040
0.5
1040
0.5
1040
0.5
1070
     0
1002
{
1002
}
1002
}
  0
ENDSEC
  0
SECTION
  2
OBJECTS
  0
DICTIONARY
  5
1A
330
0
100
AcDbDictionary
  3
ACAD_GROUP
350
18
  3
ACAD_IMAGE_DICT
350
1E2
  3
ACAD_IMAGE_VARS
350
1E3
  3
ACAD_LAYOUT
350
16B
  3
ACAD_MLINESTYLE
350
19
  3
ACAD_PLOTSETTINGS
350
16C
  3
ACAD_PLOTSTYLENAME
350
169
  3
ACDBHEADERROUNDTRIPXREC
350
903
  3
ACDBVARIABLEDICTIONARY
350
475
  3
DWGPROPS
350
172
  0
DICTIONARY
  5
924
330
2
100
AcDbDictionary
280
     1
  3
ACAD_LAYOUTSELFREF
360
925
  0
DICTIONARY
  5
926
330
7
100
AcDbDictionary
280
     1
  3
ACAD_LAYOUTSELFREF
360
927
  0
DICTIONARY
  5
18
102
{ACAD_REACTORS
330
1A
102
}
330
1A
100
AcDbDictionary
  0
DICTIONARY
  5
1E2
102
{ACAD_REACTORS
330
1A
102
}
330
1A
100
AcDbDictionary
  3
DARLIN
350
1E4
  3
SC
350
3D3
  0
RASTERVARIABLES
  5
1E3
102
{ACAD_REACTORS
330
1A
102
}
330
1A
100
AcDbRasterVariables
 90
        0
 70
     1
 71
     1
 72
     0
  0
DICTIONARY
  5
16B
102
{ACAD_REACTORS
330
1A
102
}
330
1A
100
AcDbDictionary
  0
DICTIONARY
  5
19
102
{ACAD_REACTORS
330
1A
102
}
330
1A
100
AcDbDictionary
  3
STANDARD
350
1C
  0
DICTIONARY
  5
16C
102
{ACAD_REACTORS
330
1A
102
}
330
1A
100
AcDbDictionary
  0
ACDBDICTIONARYWDFLT
  5
169
102
{ACAD_REACTORS
330
1A
102
}
330
1A
100
AcDbDictionary
281
     1
  3
Normal
350
16A
100
AcDbDictionaryWithDefault
340
16A
  0
DICTIONARY
  5
903
102
{ACAD_REACTORS
330
1A
102
}
330
1A
100
AcDbDictionary
  3
CEPSNTYPE
350
90D
  3
DIMSTYLEDATA
350
911
  3
FINGERPRINTGUID
350
90E
  3
HYPERLINKBASE
350
906
  3
INSUNITS
350
90C
  3
LAYOUTDICT
350
908
  3
LWETCUNION
350
90B
  3
PLOTSETDICT
350
909
  3
PLOTSTYLNAMDICT
350
90A
  3
PSVPSCALE
350
910
  3
PUCSBASE
350
914
  3
PUCSORGBACK
350
91A
  3
PUCSORGBOTTOM
350
916
  3
PUCSORGFRONT
350
919
  3
PUCSORGLEFT
350
917
  3
PUCSORGRIGHT
350
918
  3
PUCSORGTOP
350
915
  3
PUCSORTHOREF
350
912
  3
PUCSORTHOVIEW
350
913
  3
STYLESHEET
350
907
  3
TSTACKALIGN
350
904
  3
TSTACKSIZE
350
905
  3
UCSBASE
350
91D
  3
UCSORGBACK
350
923
  3
UCSORGBOTTOM
350
91F
  3
UCSORGFRONT
350
922
  3
UCSORGLEFT
350
920
  3
UCSORGRIGHT
350
921
  3
UCSORGTOP
350
91E
  3
UCSORTHOREF
350
91B
  3
UCSORTHOVIEW
350
91C
  3
VERSIONGUID
350
90F
  0
DICTIONARY
  5
475
102
{ACAD_REACTORS
330
1A
102
}
330
1A
100
AcDbDictionary
  3
DIMASSOC
350
476
  0
XRECORD
  5
172
102
{ACAD_REACTORS
330
1A
102
}
330
1A
100
AcDbXrecord
  1
DWGPROPS COOKIE
  2

  3

  4

  6

  7

  8
Benson Wood Products
  9

300
=
301
=
302
=
303
=
304
=
305
=
306
=
307
=
308
=
309
=
 40
0.1320853009259259
 41
2451257.51637963
 42
2453236.309322916
  1

 90
        0
  0
XRECORD
  5
925
102
{ACAD_REACTORS
330
924
102
}
330
924
100
AcDbXrecord
340
2
  0
XRECORD
  5
927
102
{ACAD_REACTORS
330
926
102
}
330
926
100
AcDbXrecord
340
7
  0
IMAGEDEF
  5
1E4
102
{ACAD_REACTORS
330
1E2
102
}
330
1E2
100
AcDbRasterImageDef
 90
        0
  1
C:\AutoCAD 2000i\scans\darlin.bmp
 10
661.0
 20
624.0
 11
0.0846668355628098
 21
0.0846668355628098
280
     1
281
     2
  0
IMAGEDEF
  5
3D3
102
{ACAD_REACTORS
330
1E2
102
}
330
1E2
100
AcDbRasterImageDef
 90
        0
  1
C:\AutoCAD 2000i\scans\sc.bmp
 10
1285.0
 20
1897.0
 11
0.0423334177814049
 21
0.0423334177814049
280
     1
281
     2
  0
MLINESTYLE
  5
1C
102
{ACAD_REACTORS
330
19
102
}
330
19
100
AcDbMlineStyle
  2
STANDARD
 70
     0
  3

 62
     0
 51
90.0
 52
90.0
 71
     2
 49
0.5
 62
   256
  6
BYLAYER
 49
-0.5
 62
   256
  6
BYLAYER
  0
ACDBPLACEHOLDER
  5
16A
102
{ACAD_REACTORS
330
169
102
}
330
169
100
AcDbPlaceHolder
280
     0
  0
XRECORD
  5
90D
102
{ACAD_REACTORS
330
903
102
}
330
903
100
AcDbXrecord
 90
        0
  0
XRECORD
  5
911
102
{ACAD_REACTORS
330
903
102
}
330
903
100
AcDbXrecord
1000
DSTYLE
1002
{
1070
   179
 70
     3
1002
}
  0
XRECORD
  5
90E
102
{ACAD_REACTORS
330
903
102
}
330
903
100
AcDbXrecord
  1
{89108230-6C88-44B9-880F-278BAA3B4DED}
  0
XRECORD
  5
906
102
{ACAD_REACTORS
330
903
102
}
330
903
100
AcDbXrecord
  1

  0
XRECORD
  5
90C
102
{ACAD_REACTORS
330
903
102
}
330
903
100
AcDbXrecord
 90
        0
  0
XRECORD
  5
908
102
{ACAD_REACTORS
330
903
102
}
330
903
100
AcDbXrecord
340
16B
  0
XRECORD
  5
90B
102
{ACAD_REACTORS
330
903
102
}
330
903
100
AcDbXrecord
 90
    10781
  0
XRECORD
  5
909
102
{ACAD_REACTORS
330
903
102
}
330
903
100
AcDbXrecord
340
16C
  0
XRECORD
  5
90A
102
{ACAD_REACTORS
330
903
102
}
330
903
100
AcDbXrecord
340
169
  0
XRECORD
  5
910
102
{ACAD_REACTORS
330
903
102
}
330
903
100
AcDbXrecord
 40
0.0
  0
XRECORD
  5
914
102
{ACAD_REACTORS
330
903
102
}
330
903
100
AcDbXrecord
340
0
  0
XRECORD
  5
91A
102
{ACAD_REACTORS
330
903
102
}
330
903
100
AcDbXrecord
 10
0.0
 20
0.0
 30
0.0
  0
XRECORD
  5
916
102
{ACAD_REACTORS
330
903
102
}
330
903
100
AcDbXrecord
 10
0.0
 20
0.0
 30
0.0
  0
XRECORD
  5
919
102
{ACAD_REACTORS
330
903
102
}
330
903
100
AcDbXrecord
 10
0.0
 20
0.0
 30
0.0
  0
XRECORD
  5
917
102
{ACAD_REACTORS
330
903
102
}
330
903
100
AcDbXrecord
 10
0.0
 20
0.0
 30
0.0
  0
XRECORD
  5
918
102
{ACAD_REACTORS
330
903
102
}
330
903
100
AcDbXrecord
 10
0.0
 20
0.0
 30
0.0
  0
XRECORD
  5
915
102
{ACAD_REACTORS
330
903
102
}
330
903
100
AcDbXrecord
 10
0.0
 20
0.0
 30
0.0
  0
XRECORD
  5
912
102
{ACAD_REACTORS
330
903
102
}
330
903
100
AcDbXrecord
340
0
  0
XRECORD
  5
913
102
{ACAD_REACTORS
330
903
102
}
330
903
100
AcDbXrecord
 70
     0
  0
XRECORD
  5
907
102
{ACAD_REACTORS
330
903
102
}
330
903
100
AcDbXrecord
  1
monochrome.ctb
  0
XRECORD
  5
904
102
{ACAD_REACTORS
330
903
102
}
330
903
100
AcDbXrecord
 90
        1
  0
XRECORD
  5
905
102
{ACAD_REACTORS
330
903
102
}
330
903
100
AcDbXrecord
 90
       70
  0
XRECORD
  5
91D
102
{ACAD_REACTORS
330
903
102
}
330
903
100
AcDbXrecord
340
0
  0
XRECORD
  5
923
102
{ACAD_REACTORS
330
903
102
}
330
903
100
AcDbXrecord
 10
0.0
 20
0.0
 30
0.0
  0
XRECORD
  5
91F
102
{ACAD_REACTORS
330
903
102
}
330
903
100
AcDbXrecord
 10
0.0
 20
0.0
 30
0.0
  0
XRECORD
  5
922
102
{ACAD_REACTORS
330
903
102
}
330
903
100
AcDbXrecord
 10
0.0
 20
0.0
 30
0.0
  0
XRECORD
  5
920
102
{ACAD_REACTORS
330
903
102
}
330
903
100
AcDbXrecord
 10
0.0
 20
0.0
 30
0.0
  0
XRECORD
  5
921
102
{ACAD_REACTORS
330
903
102
}
330
903
100
AcDbXrecord
 10
0.0
 20
0.0
 30
0.0
  0
XRECORD
  5
91E
102
{ACAD_REACTORS
330
903
102
}
330
903
100
AcDbXrecord
 10
0.0
 20
0.0
 30
0.0
  0
XRECORD
  5
91B
102
{ACAD_REACTORS
330
903
102
}
330
903
100
AcDbXrecord
340
0
  0
XRECORD
  5
91C
102
{ACAD_REACTORS
330
903
102
}
330
903
100
AcDbXrecord
 70
     0
  0
XRECORD
  5
90F
102
{ACAD_REACTORS
330
903
102
}
330
903
100
AcDbXrecord
  1
{E6524CE2-40D3-4DDB-8267-4003573C90DB}
  0
DICTIONARYVAR
  5
476
102
{ACAD_REACTORS
330
475
102
}
330
475
100
DictionaryVariables
280
     0
  1
1
  0
ENDSEC
  0
EOF
